  0
SECTION
  2
HEADER
  9
$ACADVER
  1
AC1015
  9
$ACADMAINTVER
 70
     6
  9
$DWGCODEPAGE
  3
ANSI_1254
  9
$INSBASE
 10
0.0
 20
0.0
 30
0.0
  9
$EXTMIN
 10
0.0
 20
0.0
 30
0.0
  9
$EXTMAX
 10
279.4
 20
215.9
 30
0.0
  9
$LIMMIN
 10
0.0
 20
0.0
  9
$LIMMAX
 10
279.4
 20
215.9
  9
$ORTHOMODE
 70
     0
  9
$REGENMODE
 70
     1
  9
$FILLMODE
 70
     1
  9
$QTEXTMODE
 70
     0
  9
$MIRRTEXT
 70
     1
  9
$LTSCALE
 40
1.0
  9
$ATTMODE
 70
     1
  9
$TEXTSIZE
 40
3.5
  9
$TRACEWID
 40
1.0
  9
$TEXTSTYLE
  7
Standard
  9
$CLAYER
  8
0
  9
$CELTYPE
  6
ByLayer
  9
$CECOLOR
 62
   256
  9
$CELTSCALE
 40
1.0
  9
$DISPSILH
 70
     0
  9
$DIMSCALE
 40
1.0
  9
$DIMASZ
 40
3.5
  9
$DIMEXO
 40
1.0
  9
$DIMDLI
 40
3.75
  9
$DIMRND
 40
0.0
  9
$DIMDLE
 40
0.0
  9
$DIMEXE
 40
1.0
  9
$DIMTP
 40
0.0
  9
$DIMTM
 40
0.0
  9
$DIMTXT
 40
3.5
  9
$DIMCEN
 40
2.5
  9
$DIMTSZ
 40
0.0
  9
$DIMTOL
 70
     0
  9
$DIMLIM
 70
     0
  9
$DIMTIH
 70
     1
  9
$DIMTOH
 70
     1
  9
$DIMSE1
 70
     0
  9
$DIMSE2
 70
     0
  9
$DIMTAD
 70
     1
  9
$DIMZIN
 70
     0
  9
$DIMBLK
  1

  9
$DIMASO
 70
     1
  9
$DIMSHO
 70
     1
  9
$DIMPOST
  1

  9
$DIMAPOST
  1

  9
$DIMALT
 70
     0
  9
$DIMALTD
 70
     3
  9
$DIMALTF
 40
0.0393700787
  9
$DIMLFAC
 40
1.0
  9
$DIMTOFL
 70
     1
  9
$DIMTVP
 40
0.0
  9
$DIMTIX
 70
     0
  9
$DIMSOXD
 70
     0
  9
$DIMSAH
 70
     0
  9
$DIMBLK1
  1

  9
$DIMBLK2
  1

  9
$DIMSTYLE
  2
ISO-25
  9
$DIMCLRD
 70
     0
  9
$DIMCLRE
 70
     0
  9
$DIMCLRT
 70
     0
  9
$DIMTFAC
 40
1.0
  9
$DIMGAP
 40
1.524
  9
$DIMJUST
 70
     0
  9
$DIMSD1
 70
     0
  9
$DIMSD2
 70
     0
  9
$DIMTOLJ
 70
     0
  9
$DIMTZIN
 70
     0
  9
$DIMALTZ
 70
     0
  9
$DIMALTTZ
 70
     0
  9
$DIMUPT
 70
     0
  9
$DIMDEC
 70
     2
  9
$DIMTDEC
 70
     2
  9
$DIMALTU
 70
     2
  9
$DIMALTTD
 70
     3
  9
$DIMTXSTY
  7
Standard
  9
$DIMAUNIT
 70
     0
  9
$DIMADEC
 70
     2
  9
$DIMALTRND
 40
0.0
  9
$DIMAZIN
 70
     0
  9
$DIMDSEP
 70
    44
  9
$DIMATFIT
 70
     3
  9
$DIMFRAC
 70
     0
  9
$DIMLDRBLK
  1

  9
$DIMLUNIT
 70
     2
  9
$DIMLWD
 70
    -2
  9
$DIMLWE
 70
    -2
  9
$DIMTMOVE
 70
     0
  9
$LUNITS
 70
     2
  9
$LUPREC
 70
     2
  9
$SKETCHINC
 40
1.0
  9
$FILLETRAD
 40
10.0
  9
$AUNITS
 70
     0
  9
$AUPREC
 70
     2
  9
$MENU
  1
.
  9
$ELEVATION
 40
0.0
  9
$PELEVATION
 40
0.0
  9
$THICKNESS
 40
0.0
  9
$LIMCHECK
 70
     0
  9
$CHAMFERA
 40
0.0
  9
$CHAMFERB
 40
0.0
  9
$CHAMFERC
 40
0.0
  9
$CHAMFERD
 40
0.0
  9
$SKPOLY
 70
     0
  9
$TDCREATE
 40
2458985.691521678
  9
$TDUCREATE
 40
2458985.566521678
  9
$TDUPDATE
 40
2458985.691522107
  9
$TDUUPDATE
 40
2458985.566522107
  9
$TDINDWG
 40
0.0000000116
  9
$TDUSRTIMER
 40
0.0000000116
  9
$USRTIMER
 70
     1
  9
$ANGBASE
 50
0.0
  9
$ANGDIR
 70
     0
  9
$PDMODE
 70
     0
  9
$PDSIZE
 40
-1.0
  9
$PLINEWID
 40
0.0
  9
$SPLFRAME
 70
     0
  9
$SPLINETYPE
 70
     6
  9
$SPLINESEGS
 70
     8
  9
$HANDSEED
  5
CB
  9
$SURFTAB1
 70
     6
  9
$SURFTAB2
 70
     6
  9
$SURFTYPE
 70
     6
  9
$SURFU
 70
     6
  9
$SURFV
 70
     6
  9
$UCSBASE
  2

  9
$UCSNAME
  2

  9
$UCSORG
 10
0.0
 20
0.0
 30
0.0
  9
$UCSXDIR
 10
1.0
 20
0.0
 30
0.0
  9
$UCSYDIR
 10
0.0
 20
1.0
 30
0.0
  9
$UCSORTHOREF
  2

  9
$UCSORTHOVIEW
 70
     0
  9
$UCSORGTOP
 10
0.0
 20
0.0
 30
0.0
  9
$UCSORGBOTTOM
 10
0.0
 20
0.0
 30
0.0
  9
$UCSORGLEFT
 10
0.0
 20
0.0
 30
0.0
  9
$UCSORGRIGHT
 10
0.0
 20
0.0
 30
0.0
  9
$UCSORGFRONT
 10
0.0
 20
0.0
 30
0.0
  9
$UCSORGBACK
 10
0.0
 20
0.0
 30
0.0
  9
$PUCSBASE
  2

  9
$PUCSNAME
  2

  9
$PUCSORG
 10
0.0
 20
0.0
 30
0.0
  9
$PUCSXDIR
 10
1.0
 20
0.0
 30
0.0
  9
$PUCSYDIR
 10
0.0
 20
1.0
 30
0.0
  9
$PUCSORTHOREF
  2

  9
$PUCSORTHOVIEW
 70
     0
  9
$PUCSORGTOP
 10
0.0
 20
0.0
 30
0.0
  9
$PUCSORGBOTTOM
 10
0.0
 20
0.0
 30
0.0
  9
$PUCSORGLEFT
 10
0.0
 20
0.0
 30
0.0
  9
$PUCSORGRIGHT
 10
0.0
 20
0.0
 30
0.0
  9
$PUCSORGFRONT
 10
0.0
 20
0.0
 30
0.0
  9
$PUCSORGBACK
 10
0.0
 20
0.0
 30
0.0
  9
$USERI1
 70
     0
  9
$USERI2
 70
     0
  9
$USERI3
 70
     0
  9
$USERI4
 70
     0
  9
$USERI5
 70
     0
  9
$USERR1
 40
0.0
  9
$USERR2
 40
0.0
  9
$USERR3
 40
0.0
  9
$USERR4
 40
0.0
  9
$USERR5
 40
0.0
  9
$WORLDVIEW
 70
     1
  9
$SHADEDGE
 70
     3
  9
$SHADEDIF
 70
    70
  9
$TILEMODE
 70
     1
  9
$MAXACTVP
 70
    64
  9
$PINSBASE
 10
0.0
 20
0.0
 30
0.0
  9
$PLIMCHECK
 70
     0
  9
$PEXTMIN
 10
1.0000000000E+20
 20
1.0000000000E+20
 30
1.0000000000E+20
  9
$PEXTMAX
 10
-1.0000000000E+20
 20
-1.0000000000E+20
 30
-1.0000000000E+20
  9
$PLIMMIN
 10
0.0
 20
0.0
  9
$PLIMMAX
 10
420.0
 20
297.0
  9
$UNITMODE
 70
     0
  9
$VISRETAIN
 70
     1
  9
$PLINEGEN
 70
     0
  9
$PSLTSCALE
 70
     1
  9
$TREEDEPTH
 70
  3020
  9
$CMLSTYLE
  2
Standard
  9
$CMLJUST
 70
     0
  9
$CMLSCALE
 40
20.0
  9
$PROXYGRAPHICS
 70
     1
  9
$MEASUREMENT
 70
     1
  9
$CELWEIGHT
370
    -1
  9
$ENDCAPS
280
     0
  9
$JOINSTYLE
280
     0
  9
$LWDISPLAY
290
     1
  9
$INSUNITS
 70
     4
  9
$HYPERLINKBASE
  1

  9
$STYLESHEET
  1

  9
$XEDIT
290
     1
  9
$CEPSNTYPE
380
     0
  9
$PSTYLEMODE
290
     1
  9
$FINGERPRINTGUID
  2
{c37b92f3-b0d7-45cd-a95e-e35644999e35}
  9
$VERSIONGUID
  2
{FAEB1C32-E019-11D5-929B-00C0DF256EC4}
  9
$EXTNAMES
290
     1
  9
$PSVPSCALE
 40
0.0
  9
$OLESTARTUP
290
     0
  0
ENDSEC
  0
SECTION
  2
CLASSES
  0
CLASS
  1
ACDBDICTIONARYWDFLT
  2
AcDbDictionaryWithDefault
  3
ObjectDBX Classes
 90
        0
280
     0
281
     0
  0
CLASS
  1
VISUALSTYLE
  2
AcDbVisualStyle
  3
ObjectDBX Classes
 90
     4095
280
     0
281
     0
  0
CLASS
  1
MATERIAL
  2
AcDbMaterial
  3
ObjectDBX Classes
 90
     1153
280
     0
281
     0
  0
CLASS
  1
SCALE
  2
AcDbScale
  3
ObjectDBX Classes
 90
     1153
280
     0
281
     0
  0
CLASS
  1
TABLESTYLE
  2
AcDbTableStyle
  3
ObjectDBX Classes
 90
     4095
280
     0
281
     0
  0
CLASS
  1
MLEADERSTYLE
  2
AcDbMLeaderStyle
  3
ACDB_MLEADERSTYLE_CLASS
 90
     4095
280
     0
281
     0
  0
CLASS
  1
SUN
  2
AcDbSun
  3
SCENEOE
 90
     1153
280
     0
281
     0
  0
CLASS
  1
ACDBPLACEHOLDER
  2
AcDbPlaceHolder
  3
ObjectDBX Classes
 90
        0
280
     0
281
     0
  0
CLASS
  1
LAYOUT
  2
AcDbLayout
  3
ObjectDBX Classes
 90
        0
280
     0
281
     0
  0
ENDSEC
  0
SECTION
  2
TABLES
  0
TABLE
  2
VPORT
  5
8
330
0
100
AcDbSymbolTable
 70
     1
  0
VPORT
  5
29
330
8
100
AcDbSymbolTableRecord
100
AcDbViewportTableRecord
  2
*Active
 70
     0
 10
0.0
 20
0.0
 11
1.0
 21
1.0
 12
139.7
 22
107.95
 13
0.0
 23
0.0
 14
10.0
 24
10.0
 15
10.0
 25
10.0
 16
0.0
 26
0.0
 36
1.0
 17
0.0
 27
0.0
 37
0.0
 40
215.9
 41
1.2941176471
 42
50.0
 43
0.0
 44
0.0
 50
0.0
 51
0.0
 71
     0
 72
  2000
 73
     1
 74
     3
 75
     0
 76
     0
 77
     0
 78
     0
281
     0
 65
     1
110
0.0
120
0.0
130
0.0
111
1.0
121
0.0
131
0.0
112
0.0
122
1.0
132
0.0
 79
     0
146
0.0
  0
ENDTAB
  0
TABLE
  2
LTYPE
  5
5
330
0
100
AcDbSymbolTable
 70
     6
  0
LTYPE
  5
14
330
5
100
AcDbSymbolTableRecord
100
AcDbLinetypeTableRecord
  2
ByBlock
 70
     0
  3

 72
    65
 73
     0
 40
0.0
  0
LTYPE
  5
15
330
5
100
AcDbSymbolTableRecord
100
AcDbLinetypeTableRecord
  2
ByLayer
 70
     0
  3

 72
    65
 73
     0
 40
0.0
  0
LTYPE
  5
16
330
5
100
AcDbSymbolTableRecord
100
AcDbLinetypeTableRecord
  2
Continuous
 70
     0
  3
Solid line
 72
    65
 73
     0
 40
0.0
  0
LTYPE
  5
6E
330
5
100
AcDbSymbolTableRecord
100
AcDbLinetypeTableRecord
  2
HIDDEN
 70
     0
  3
Hidden __ __ __ __ __ __ __ __ __ __ __ __ __ __
 72
    65
 73
     2
 40
1.905
 49
1.27
 74
     0
 49
-0.635
 74
     0
  0
LTYPE
  5
6F
330
5
100
AcDbSymbolTableRecord
100
AcDbLinetypeTableRecord
  2
PHANTOM
 70
     0
  3
Phantom ______  __  __  ______  __  __  ______
 72
    65
 73
     6
 40
12.7
 49
6.35
 74
     0
 49
-1.27
 74
     0
 49
1.27
 74
     0
 49
-1.27
 74
     0
 49
1.27
 74
     0
 49
-1.27
 74
     0
  0
LTYPE
  5
70
330
5
100
AcDbSymbolTableRecord
100
AcDbLinetypeTableRecord
  2
CENTER
 70
     0
  3
Center ____ _ ____ _ ____ _ ____ _ ____ _ ____
 72
    65
 73
     4
 40
10.16
 49
6.35
 74
     0
 49
-1.27
 74
     0
 49
1.27
 74
     0
 49
-1.27
 74
     0
  0
LTYPE
  5
71
330
5
100
AcDbSymbolTableRecord
100
AcDbLinetypeTableRecord
  2
CENTERX2
 70
     0
  3
Center (2x) ________  __  ________  __  _____
 72
    65
 73
     4
 40
20.32
 49
12.7
 74
     0
 49
-2.54
 74
     0
 49
2.54
 74
     0
 49
-2.54
 74
     0
  0
LTYPE
  5
72
330
5
100
AcDbSymbolTableRecord
100
AcDbLinetypeTableRecord
  2
DOT2
 70
     0
  3
Dot (.5x) ........................................
 72
    65
 73
     2
 40
0.635
 49
0.0
 74
     0
 49
-0.635
 74
     0
  0
ENDTAB
  0
TABLE
  2
LAYER
  5
2
330
0
100
AcDbSymbolTable
 70
    17
  0
LAYER
  5
10
330
2
100
AcDbSymbolTableRecord
100
AcDbLayerTableRecord
  2
0
 70
     0
 62
     7
  6
Continuous
370
    -3
390
F
  0
LAYER
  5
73
330
2
100
AcDbSymbolTableRecord
100
AcDbLayerTableRecord
  2
FORMAT
 70
     0
 62
     7
  6
Continuous
370
    -3
390
F
  0
LAYER
  5
74
330
2
100
AcDbSymbolTableRecord
100
AcDbLayerTableRecord
  2
YARDIMCI_GEOMETRI
 70
     0
 62
    -6
  6
Continuous
290
     0
370
    -3
390
F
  0
LAYER
  5
75
330
2
100
AcDbSymbolTableRecord
100
AcDbLayerTableRecord
  2
SAYFA_CERCEVESI
 70
     0
 62
     7
  6
Continuous
370
    25
390
F
  0
LAYER
  5
76
330
2
100
AcDbSymbolTableRecord
100
AcDbLayerTableRecord
  2
ANTET
 70
     0
 62
     7
  6
Continuous
370
    -3
390
F
  0
LAYER
  5
77
330
2
100
AcDbSymbolTableRecord
100
AcDbLayerTableRecord
  2
OLCU
 70
     0
 62
   150
  6
Continuous
370
    -3
390
F
  0
LAYER
  5
78
330
2
100
AcDbSymbolTableRecord
100
AcDbLayerTableRecord
  2
METIN
 70
     0
 62
    96
  6
Continuous
370
    -3
390
F
  0
LAYER
  5
79
330
2
100
AcDbSymbolTableRecord
100
AcDbLayerTableRecord
  2
BALON
 70
     0
 62
     5
  6
Continuous
370
    -3
390
F
  0
LAYER
  5
7A
330
2
100
AcDbSymbolTableRecord
100
AcDbLayerTableRecord
  2
VURGU
 70
     0
 62
     7
  6
Continuous
370
    -3
390
F
  0
LAYER
  5
7B
330
2
100
AcDbSymbolTableRecord
100
AcDbLayerTableRecord
  2
SILIK
 70
     0
 62
     7
  6
Continuous
370
    -3
390
F
  0
LAYER
  5
7C
330
2
100
AcDbSymbolTableRecord
100
AcDbLayerTableRecord
  2
MODEL
 70
     0
 62
     7
  6
Continuous
370
    -3
390
F
  0
LAYER
  5
7D
330
2
100
AcDbSymbolTableRecord
100
AcDbLayerTableRecord
  2
DETAYLANDıRMA
 70
     0
 62
   190
  6
Continuous
370
    -3
390
F
  0
LAYER
  5
7E
330
2
100
AcDbSymbolTableRecord
100
AcDbLayerTableRecord
  2
TOLERANS
 70
     0
 62
   230
  6
Continuous
370
    -3
390
F
  0
LAYER
  5
7F
330
2
100
AcDbSymbolTableRecord
100
AcDbLayerTableRecord
  2
MERKEZ_CIZGILERI
 70
     0
 62
    30
  6
Continuous
370
    -3
390
F
  0
LAYER
  5
80
330
2
100
AcDbSymbolTableRecord
100
AcDbLayerTableRecord
  2
KESIT-DETAY_CIZGILERI
 70
     0
 62
     7
  6
Continuous
370
    -3
390
F
  0
LAYER
  5
81
330
2
100
AcDbSymbolTableRecord
100
AcDbLayerTableRecord
  2
\U+041E\U+0421\U+0415\U+0412\U+042B\U+0415
 70
     0
 62
     7
  6
Continuous
370
    -3
390
F
  0
LAYER
  5
82
330
2
100
AcDbSymbolTableRecord
100
AcDbLayerTableRecord
  2
\U+0412\U+041E\U+0414\U+042F\U+041D\U+042B\U+0415_\U+0417\U+041D\U+0410\U+041A\U+0418
 70
     0
 62
    11
  6
Continuous
370
    -3
390
F
  0
ENDTAB
  0
TABLE
  2
STYLE
  5
3
330
0
100
AcDbSymbolTable
 70
     1
  0
STYLE
  5
11
330
3
100
AcDbSymbolTableRecord
100
AcDbTextStyleTableRecord
  2
Standard
 70
     0
 40
0.0
 41
1.0
 50
0.0
 71
     0
 42
3.5
  3
txt
  4

  0
ENDTAB
  0
TABLE
  2
VIEW
  5
6
330
0
100
AcDbSymbolTable
 70
     0
  0
ENDTAB
  0
TABLE
  2
UCS
  5
7
330
0
100
AcDbSymbolTable
 70
     0
  0
ENDTAB
  0
TABLE
  2
APPID
  5
9
330
0
100
AcDbSymbolTable
 70
     1
  0
APPID
  5
12
330
9
100
AcDbSymbolTableRecord
100
AcDbRegAppTableRecord
  2
ACAD
 70
     0
  0
ENDTAB
  0
TABLE
  2
DIMSTYLE
  5
A
330
0
100
AcDbSymbolTable
 70
     1
100
AcDbDimStyleTable
  0
DIMSTYLE
105
27
330
A
100
AcDbSymbolTableRecord
100
AcDbDimStyleTableRecord
  2
ISO-25
 70
     0
 41
2.5
 42
0.625
 43
3.75
 44
1.25
 73
     0
 74
     0
 77
     1
 78
     8
140
2.5
141
2.5
143
0.0393700787
147
0.625
171
     3
172
     1
178
     0
271
     2
272
     2
274
     3
278
    44
283
     0
284
     8
340
11
  0
ENDTAB
  0
TABLE
  2
BLOCK_RECORD
  5
1
330
0
100
AcDbSymbolTable
 70
     3
  0
BLOCK_RECORD
  5
1F
330
1
100
AcDbSymbolTableRecord
100
AcDbBlockTableRecord
  2
*Model_Space
340
22
  0
BLOCK_RECORD
  5
1B
330
1
100
AcDbSymbolTableRecord
100
AcDbBlockTableRecord
  2
*Paper_Space
340
1E
  0
BLOCK_RECORD
  5
23
330
1
100
AcDbSymbolTableRecord
100
AcDbBlockTableRecord
  2
*Paper_Space0
340
26
  0
BLOCK_RECORD
  5
88
330
1
100
AcDbSymbolTableRecord
100
AcDbBlockTableRecord
  2
SW_CENTERMARKSYMBOL_0
340
0
102
{BLKREFS
331
93
102
}
  0
BLOCK_RECORD
  5
9C
330
1
100
AcDbSymbolTableRecord
100
AcDbBlockTableRecord
  2
SW_CENTERMARKSYMBOL_1
340
0
102
{BLKREFS
331
A7
102
}
  0
ENDTAB
  0
ENDSEC
  0
SECTION
  2
BLOCKS
  0
BLOCK
  5
20
330
1F
100
AcDbEntity
  8
0
100
AcDbBlockBegin
  2
*Model_Space
 70
     0
 10
0.0
 20
0.0
 30
0.0
  3
*Model_Space
  1

  0
ENDBLK
  5
21
330
1F
100
AcDbEntity
  8
0
100
AcDbBlockEnd
  0
BLOCK
  5
1C
330
1B
100
AcDbEntity
 67
     1
  8
0
100
AcDbBlockBegin
  2
*Paper_Space
 70
     0
 10
0.0
 20
0.0
 30
0.0
  3
*Paper_Space
  1

  0
ENDBLK
  5
1D
330
1B
100
AcDbEntity
 67
     1
  8
0
100
AcDbBlockEnd
  0
BLOCK
  5
24
330
23
100
AcDbEntity
  8
0
100
AcDbBlockBegin
  2
*Paper_Space0
 70
     0
 10
0.0
 20
0.0
 30
0.0
  3
*Paper_Space0
  1

  0
ENDBLK
  5
25
330
23
100
AcDbEntity
  8
0
100
AcDbBlockEnd
  0
BLOCK
  5
89
330
88
100
AcDbEntity
  8
0
100
AcDbBlockBegin
  2
SW_CENTERMARKSYMBOL_0
 70
     0
 10
0.0
 20
0.0
 30
0.0
  3
SW_CENTERMARKSYMBOL_0
  1

  0
LINE
  5
8B
330
88
100
AcDbEntity
  8
FORMAT
 62
     0
100
AcDbLine
 10
0.0
 20
0.0
 30
0.0
 11
2.5
 21
0.0
 31
0.0
  0
LINE
  5
8C
330
88
100
AcDbEntity
  8
FORMAT
 62
     0
100
AcDbLine
 10
0.0
 20
0.0
 30
0.0
 11
0.0
 21
2.5
 31
0.0
  0
LINE
  5
8D
330
88
100
AcDbEntity
  8
FORMAT
 62
     0
100
AcDbLine
 10
0.0
 20
0.0
 30
0.0
 11
-2.5
 21
0.0
 31
0.0
  0
LINE
  5
8E
330
88
100
AcDbEntity
  8
FORMAT
 62
     0
100
AcDbLine
 10
0.0
 20
0.0
 30
0.0
 11
0.0
 21
-2.5
 31
0.0
  0
LINE
  5
8F
330
88
100
AcDbEntity
  8
FORMAT
 62
     0
100
AcDbLine
 10
5.0
 20
0.0
 30
0.0
 11
160.0
 21
0.0
 31
0.0
  0
LINE
  5
90
330
88
100
AcDbEntity
  8
FORMAT
 62
     0
100
AcDbLine
 10
0.0
 20
5.0
 30
0.0
 11
0.0
 21
160.0
 31
0.0
  0
LINE
  5
91
330
88
100
AcDbEntity
  8
FORMAT
 62
     0
100
AcDbLine
 10
-5.0
 20
0.0
 30
0.0
 11
-160.0
 21
0.0
 31
0.0
  0
LINE
  5
92
330
88
100
AcDbEntity
  8
FORMAT
 62
     0
100
AcDbLine
 10
0.0
 20
-5.0
 30
0.0
 11
0.0
 21
-160.0
 31
0.0
  0
ENDBLK
  5
8A
330
88
100
AcDbEntity
  8
0
100
AcDbBlockEnd
  0
BLOCK
  5
9D
330
9C
100
AcDbEntity
  8
0
100
AcDbBlockBegin
  2
SW_CENTERMARKSYMBOL_1
 70
     0
 10
0.0
 20
0.0
 30
0.0
  3
SW_CENTERMARKSYMBOL_1
  1

  0
LINE
  5
9F
330
9C
100
AcDbEntity
  8
FORMAT
 62
     0
100
AcDbLine
 10
0.0
 20
0.0
 30
0.0
 11
0.0
 21
2.5
 31
0.0
  0
LINE
  5
A0
330
9C
100
AcDbEntity
  8
FORMAT
 62
     0
100
AcDbLine
 10
0.0
 20
0.0
 30
0.0
 11
-2.5
 21
0.0
 31
0.0
  0
LINE
  5
A1
330
9C
100
AcDbEntity
  8
FORMAT
 62
     0
100
AcDbLine
 10
0.0
 20
0.0
 30
0.0
 11
0.0
 21
-2.5
 31
0.0
  0
LINE
  5
A2
330
9C
100
AcDbEntity
  8
FORMAT
 62
     0
100
AcDbLine
 10
0.0
 20
0.0
 30
0.0
 11
2.5
 21
0.0
 31
0.0
  0
LINE
  5
A3
330
9C
100
AcDbEntity
  8
FORMAT
 62
     0
100
AcDbLine
 10
0.0
 20
5.0
 30
0.0
 11
0.0
 21
57.5
 31
0.0
  0
LINE
  5
A4
330
9C
100
AcDbEntity
  8
FORMAT
 62
     0
100
AcDbLine
 10
-5.0
 20
0.0
 30
0.0
 11
-57.5
 21
0.0
 31
0.0
  0
LINE
  5
A5
330
9C
100
AcDbEntity
  8
FORMAT
 62
     0
100
AcDbLine
 10
0.0
 20
-5.0
 30
0.0
 11
0.0
 21
-57.5
 31
0.0
  0
LINE
  5
A6
330
9C
100
AcDbEntity
  8
FORMAT
 62
     0
100
AcDbLine
 10
5.0
 20
0.0
 30
0.0
 11
57.5
 21
0.0
 31
0.0
  0
ENDBLK
  5
9E
330
9C
100
AcDbEntity
  8
0
100
AcDbBlockEnd
  0
ENDSEC
  0
SECTION
  2
ENTITIES
  0
LINE
  5
83
330
1F
100
AcDbEntity
  8
0
  6
Continuous
 62
     7
370
    25
100
AcDbLine
 10
85.2388278633
 20
5.5749517369
 30
0.0
 11
85.2388278633
 21
-139.816750915
 31
0.0
  0
LINE
  5
84
330
1F
100
AcDbEntity
  8
0
  6
Continuous
 62
     7
370
    25
100
AcDbLine
 10
195.2388272672
 20
-139.816750915
 30
0.0
 11
195.2388272672
 21
5.5741172719
 31
0.0
  0
CIRCLE
  5
85
330
1F
100
AcDbEntity
  8
0
  6
Continuous
 62
     7
370
    25
100
AcDbCircle
 10
140.2388275653
 20
153.1832617212
 30
0.0
 40
138.8
  0
CIRCLE
  5
86
330
1F
100
AcDbEntity
  8
0
  6
Continuous
 62
     7
370
    25
100
AcDbCircle
 10
140.2388275653
 20
153.1832617212
 30
0.0
 40
157.5
  0
LINE
  5
87
330
1F
100
AcDbEntity
  8
0
  6
Continuous
 62
     7
370
    25
100
AcDbLine
 10
195.2388272672
 20
-139.816750915
 30
0.0
 11
85.2388278633
 21
-139.816750915
 31
0.0
  0
INSERT
  5
93
330
1F
100
AcDbEntity
  8
FORMAT
 62
     7
100
AcDbBlockReference
  2
SW_CENTERMARKSYMBOL_0
 10
140.2388275653
 20
153.1832617212
 30
0.0
  0
LINE
  5
94
330
1F
100
AcDbEntity
  8
0
  6
Continuous
 62
     7
370
    25
100
AcDbLine
 10
297.7388263732
 20
458.2008344765
 30
0.0
 11
297.7388263732
 21
1170.2008468743
 31
0.0
  0
LINE
  5
95
330
1F
100
AcDbEntity
  8
0
  6
Continuous
 62
     7
370
    25
100
AcDbLine
 10
-17.2611712426
 20
1170.2008468743
 30
0.0
 11
-17.2611712426
 21
458.2008344765
 31
0.0
  0
CIRCLE
  5
96
330
1F
100
AcDbEntity
  8
0
  6
Continuous
 62
     7
370
    25
100
AcDbCircle
 10
140.2388275653
 20
814.2008406754
 30
0.0
 40
48.40000000000009
  0
CIRCLE
  5
97
330
1F
100
AcDbEntity
  8
0
  6
Continuous
 62
     7
370
    25
100
AcDbCircle
 10
140.2388275653
 20
814.2008406754
 30
0.0
 40
55.00000000000011
  0
LINE
  5
98
330
1F
100
AcDbEntity
  8
0
  6
Continuous
 62
     7
370
    25
100
AcDbLine
 10
140.2388275653
 20
1170.2008468743
 30
0.0
 11
297.7388263732
 21
1170.2008468743
 31
0.0
  0
LINE
  5
99
330
1F
100
AcDbEntity
  8
0
  6
Continuous
 62
     7
370
    25
100
AcDbLine
 10
-17.2611712426
 20
1170.2008468743
 30
0.0
 11
140.2388275653
 21
1170.2008468743
 31
0.0
  0
LINE
  5
9A
330
1F
100
AcDbEntity
  8
0
  6
Continuous
 62
     7
370
    25
100
AcDbLine
 10
140.2388275653
 20
458.2008344765
 30
0.0
 11
297.7388263732
 21
458.2008344765
 31
0.0
  0
LINE
  5
9B
330
1F
100
AcDbEntity
  8
0
  6
Continuous
 62
     7
370
    25
100
AcDbLine
 10
-17.2611712426
 20
458.2008344765
 30
0.0
 11
140.2388275653
 21
458.2008344765
 31
0.0
  0
INSERT
  5
A7
330
1F
100
AcDbEntity
  8
FORMAT
100
AcDbBlockReference
  2
SW_CENTERMARKSYMBOL_1
 10
140.2388275653
 20
814.2008406754
 30
0.0
  0
LINE
  5
A8
330
1F
100
AcDbEntity
  8
0
  6
Continuous
 62
     7
370
    25
100
AcDbLine
 10
-254.6540687542
 20
310.6832605291
 30
0.0
 11
-966.6540811519
 21
310.6832605291
 31
0.0
  0
LINE
  5
A9
330
1F
100
AcDbEntity
  8
0
  6
Continuous
 62
     7
370
    25
100
AcDbLine
 10
-555.659219877
 20
-4.3167370868
 30
0.0
 11
-254.6540687542
 21
-4.3167370868
 31
0.0
  0
LINE
  5
AA
330
1F
100
AcDbEntity
  8
0
  6
Continuous
 62
     7
370
    25
100
AcDbLine
 10
-966.6540811519
 20
-4.3167370868
 30
0.0
 11
-665.654074655
 21
-4.3167370868
 31
0.0
  0
LINE
  5
AB
330
1F
100
AcDbEntity
  8
0
  6
Continuous
 62
     7
370
    25
100
AcDbLine
 10
-665.654074655
 20
-4.3167370868
 30
0.0
 11
-665.654074655
 21
-139.816750915
 31
0.0
  0
LINE
  5
AC
330
1F
100
AcDbEntity
  8
0
  6
Continuous
 62
     7
370
    25
100
AcDbLine
 10
-555.6540752511
 20
-139.816750915
 30
0.0
 11
-555.6540752511
 21
-4.3149489474
 31
0.0
  0
LWPOLYLINE
  5
AD
330
1F
100
AcDbEntity
  8
0
  6
Continuous
 62
     7
370
    25
100
AcDbPolyline
 90
       40
 70
   128
 43
0.0
 10
-555.659219877
 20
-4.3149489474
 10
-555.8367485861
 20
-4.2529452157
 10
-556.4018788497
 20
-4.0571588588
 10
-557.2782086889
 20
-3.7569004607
 10
-558.4801326255
 20
-3.3522594285
 10
-560.0451308052
 20
-2.8375733208
 10
-561.9309472601
 20
-2.2361475539
 10
-564.1262496571
 20
-1.5619594168
 10
-566.6135477583
 20
-0.8323836636
 10
-569.4540257315
 20
-0.0443357539
 10
-572.5673700432
 20
0.7632922816
 10
-576.0128761391
 20
1.5874755073
 10
-579.7032772313
 20
2.3880254913
 10
-583.7339761417
 20
3.163318007
 10
-587.974507616
 20
3.8661014724
 10
-592.2617095272
 20
4.4566940952
 10
-596.6904724698
 20
4.9394321132
 10
-601.3792783703
 20
5.3070735622
 10
-606.14721875
 20
5.5297416139
 10
-610.5432025576
 20
5.5982422519
 10
-614.9399902421
 20
5.5363279271
 10
-619.4379900332
 20
5.3371143031
 10
-623.869268478
 20
5.0080519605
 10
-627.9871075164
 20
4.5840245176
 10
-631.9902169268
 20
4.0642422128
 10
-635.9550173144
 20
3.4454118896
 10
-639.7510601889
 20
2.75758919
 10
-643.4272977273
 20
2.0033818174
 10
-646.8852388422
 20
1.2163322854
 10
-650.1871834259
 20
0.3954273153
 10
-653.2189215283
 20
-0.4169243884
 10
-656.0011173348
 20
-1.2110370707
 10
-658.4657842974
 20
-1.9528317761
 10
-660.6526042084
 20
-2.6406246733
 10
-662.4639968137
 20
-3.2313067031
 10
-663.8289878826
 20
-3.6886382413
 10
-664.8219193081
 20
-4.0280717921
 10
-665.4449741106
 20
-4.2437213969
 10
-665.654074655
 20
-4.3167370868
 10
-665.654074655
 20
-4.3167370868
  0
LINE
  5
AE
330
1F
100
AcDbEntity
  8
0
  6
Continuous
 62
     7
370
    25
100
AcDbLine
 10
-966.6540811519
 20
-4.3167370868
 30
0.0
 11
-966.6540811519
 21
310.6832605291
 31
0.0
  0
LINE
  5
AF
330
1F
100
AcDbEntity
  8
0
  6
Continuous
 62
     7
370
    25
100
AcDbLine
 10
-254.6540687542
 20
-4.3167370868
 30
0.0
 11
-254.6540687542
 21
310.6832605291
 31
0.0
  0
LINE
  5
B0
330
1F
100
AcDbEntity
  8
0
  6
Continuous
 62
     7
370
    25
100
AcDbLine
 10
-555.6540752511
 20
-139.816750915
 30
0.0
 11
-665.654074655
 21
-139.816750915
 31
0.0
  0
LINE
  5
B1
330
1F
100
AcDbEntity
  8
0
  6
Continuous
 62
     7
370
    25
100
AcDbLine
 10
897.2151673231
 20
-4.3167370868
 30
0.0
 11
1198.21517382
 21
-4.3167370868
 31
0.0
  0
LINE
  5
B2
330
1F
100
AcDbEntity
  8
0
  6
Continuous
 62
     7
370
    25
100
AcDbLine
 10
486.2151614223
 20
-4.3167370868
 30
0.0
 11
787.2202790175
 21
-4.3167370868
 31
0.0
  0
LINE
  5
B3
330
1F
100
AcDbEntity
  8
0
  6
Continuous
 62
     7
370
    25
100
AcDbLine
 10
1198.21517382
 20
310.6832605291
 30
0.0
 11
486.2151614223
 21
310.6832605291
 31
0.0
  0
LINE
  5
B4
330
1F
100
AcDbEntity
  8
0
  6
Continuous
 62
     7
370
    25
100
AcDbLine
 10
787.2151679192
 20
-4.3149638486
 30
0.0
 11
787.2151679192
 21
-139.816750915
 31
0.0
  0
LINE
  5
B5
330
1F
100
AcDbEntity
  8
0
  6
Continuous
 62
     7
370
    25
100
AcDbLine
 10
897.2151673231
 20
-139.816750915
 30
0.0
 11
897.2151673231
 21
-4.3167370868
 31
0.0
  0
SPLINE
  5
B6
330
1F
100
AcDbEntity
  8
0
  6
Continuous
 62
     7
370
    25
100
AcDbSpline
210
0.0
220
0.0
230
1.0
 70
     8
 71
     3
 72
    46
 73
    42
 74
     0
 42
0.000000001
 43
0.00000001
 40
0.0
 40
0.0
 40
0.0
 40
0.0
 40
0.0252969701344591
 40
0.0507776164082575
 40
0.0768320781628787
 40
0.1030815170344415
 40
0.1283769436206962
 40
0.1538417104689967
 40
0.1798261655085291
 40
0.20598461246468
 40
0.2321451505076478
 40
0.258476973229727
 40
0.2853452308497047
 40
0.3123991015815056
 40
0.3393398877604402
 40
0.3664753954442602
 40
0.394243334186782
 40
0.4222390590863811
 40
0.4481704000548341
 40
0.4742982751587518
 40
0.501057164180666
 40
0.5280376511924356
 40
0.552704366283827
 40
0.5775410550635398
 40
0.602901921203958
 40
0.628438405533717
 40
0.6535668968121529
 40
0.6788558583031121
 40
0.7046369908582223
 40
0.7305835376182044
 40
0.7571339116207845
 40
0.7838625550425699
 40
0.811156795957008
 40
0.8386498572450513
 40
0.8654560938479356
 40
0.892460877963262
 40
0.9201102271097227
 40
0.9479905265384524
 40
0.9735388752363244
 40
0.9992758766173361
 40
1.0
 40
1.0
 40
1.0
 40
1.0
 10
897.2151673231206
 20
-4.316737086755936
 30
0.0
 10
897.1811493486904
 20
-4.304843846651293
 30
0.0
 10
897.1128664022579
 20
-4.280971012052034
 30
0.0
 10
896.5565035409192
 20
-4.087454178381036
 30
0.0
 10
895.6574448230953
 20
-3.778461419469817
 30
0.0
 10
894.3956874720975
 20
-3.352519476951102
 30
0.0
 10
892.8068887303859
 20
-2.829202341131778
 30
0.0
 10
890.9034582168794
 20
-2.221096545207038
 30
0.0
 10
888.6657091185723
 20
-1.533089712109068
 30
0.0
 10
886.1040273881595
 20
-0.7817764790669784
 30
0.0
 10
883.2420450266856
 20
0.0112369466025025
 30
0.0
 10
880.0797705409095
 20
0.8298634429071
 30
0.0
 10
876.6198467581365
 20
1.655028378290333
 30
0.0
 10
872.8870651180404
 20
2.46077477291333
 30
0.0
 10
868.9168757272796
 20
3.22033357750752
 30
0.0
 10
864.7089991397601
 20
3.91462118101428
 30
0.0
 10
860.2664767932292
 20
4.521691613146209
 30
0.0
 10
855.7398036344823
 20
5.003205926377166
 30
0.0
 10
851.197441575742
 20
5.347885432475039
 30
0.0
 10
846.6558069217206
 20
5.555572418647861
 30
0.0
 10
842.0177349558422
 20
5.623217158630359
 30
0.0
 10
837.465858482054
 20
5.544817276708594
 30
0.0
 10
833.0626359574212
 20
5.335287396962332
 30
0.0
 10
828.816166880173
 20
5.0115089726359
 30
0.0
 10
824.6142258511288
 20
4.57201039300563
 30
0.0
 10
820.5192228838281
 20
4.030039781545772
 30
0.0
 10
816.5758529398188
 20
3.403942947955693
 30
0.0
 10
812.7896942276722
 20
2.708393349498337
 30
0.0
 10
809.1580066922428
 20
1.954878518547823
 30
0.0
 10
805.6882278055647
 20
1.157285841243125
 30
0.0
 10
802.4235770239882
 20
0.3384993654740459
 30
0.0
 10
799.3784158768947
 20
-0.4839856788296931
 30
0.0
 10
796.5994951569251
 20
-1.283307250008817
 30
0.0
 10
794.1441269301743
 20
-2.027939794886621
 30
0.0
 10
792.0389156364329
 20
-2.694294843635578
 30
0.0
 10
790.2846250657359
 20
-3.268981423156889
 30
0.0
 10
788.8930504333626
 20
-3.737307897886663
 30
0.0
 10
787.9086400281627
 20
-4.075457294083138
 30
0.0
 10
787.3741910685538
 20
-4.261084231930348
 30
0.0
 10
787.1565168771198
 20
-4.337334223924668
 30
0.0
 10
787.2185806089484
 20
-4.315545215729285
 30
0.0
 10
787.2202790174565
 20
-4.314948947412675
 30
0.0
  0
LINE
  5
B7
330
1F
100
AcDbEntity
  8
0
  6
Continuous
 62
     7
370
    25
100
AcDbLine
 10
1198.21517382
 20
310.6832605291
 30
0.0
 11
1198.21517382
 21
-4.3167370868
 31
0.0
  0
LINE
  5
B8
330
1F
100
AcDbEntity
  8
0
  6
Continuous
 62
     7
370
    25
100
AcDbLine
 10
486.2151614223
 20
310.6832605291
 30
0.0
 11
486.2151614223
 21
-4.3167370868
 31
0.0
  0
LINE
  5
B9
330
1F
100
AcDbEntity
  8
0
  6
Continuous
 62
     7
370
    25
100
AcDbLine
 10
897.2151673231
 20
-139.816750915
 30
0.0
 11
787.2151679192
 21
-139.816750915
 31
0.0
  0
LINE
  5
BA
330
1F
100
AcDbEntity
  8
0
  6
Continuous
 62
     7
370
    25
100
AcDbLine
 10
-17.2611712426
 20
-285.5554958456
 30
0.0
 11
-17.2611712426
 21
-997.5555082433
 31
0.0
  0
LINE
  5
BB
330
1F
100
AcDbEntity
  8
0
  6
Continuous
 62
     7
370
    25
100
AcDbLine
 10
297.7388263732
 20
-997.5555082433
 30
0.0
 11
297.7388263732
 21
-285.5554958456
 31
0.0
  0
LINE
  5
BC
330
1F
100
AcDbEntity
  8
0
  6
Continuous
 62
     7
370
    25
100
AcDbLine
 10
297.7388263732
 20
-997.5555082433
 30
0.0
 11
-17.2611712426
 21
-997.5555082433
 31
0.0
  0
LINE
  5
BD
330
1F
100
AcDbEntity
  8
0
  6
Continuous
 62
     7
370
    25
100
AcDbLine
 10
297.7388263732
 20
-285.5554958456
 30
0.0
 11
-17.2611712426
 21
-285.5554958456
 31
0.0
  0
LINE
  5
BE
330
1F
100
AcDbEntity
  8
0
  6
Continuous
 62
     7
370
    25
100
AcDbLine
 10
1166.2758318598
 20
-552.8615407765
 30
0.0
 11
662.8157948884
 21
-262.2202479068
 31
0.0
  0
LINE
  5
BF
330
1F
100
AcDbEntity
  8
0
  6
Continuous
 62
     7
370
    25
100
AcDbLine
 10
505.3285952637
 20
-535.0256451952
 30
0.0
 11
780.8022147138
 21
-694.0531807074
 31
0.0
  0
LINE
  5
C0
330
1F
100
AcDbEntity
  8
0
  6
Continuous
 62
     7
370
    25
100
AcDbLine
 10
890.8022176781
 20
-757.5548307481
 30
0.0
 11
1008.7886322351
 21
-825.6669380649
 31
0.0
  0
LINE
  5
C1
330
1F
100
AcDbEntity
  8
0
  6
Continuous
 62
     7
370
    25
100
AcDbLine
 10
780.8022147138
 20
-668.5657572781
 30
0.0
 11
780.8022147138
 21
-783.1900611863
 31
0.0
  0
LINE
  5
C2
330
1F
100
AcDbEntity
  8
0
  6
Continuous
 62
     7
370
    25
100
AcDbLine
 10
890.8022124097
 20
-783.1900611863
 30
0.0
 11
890.8022124097
 21
-668.5657816129
 31
0.0
  0
SPLINE
  5
C3
330
1F
100
AcDbEntity
  8
0
  6
Continuous
 62
     7
370
    25
100
AcDbSpline
210
0.0
220
0.0
230
1.0
 70
     8
 71
     3
 72
    17
 73
    13
 74
     0
 42
0.000000001
 43
0.00000001
 40
0.0
 40
0.0
 40
0.0
 40
0.0
 40
0.1012084628072674
 40
0.2042982253454324
 40
0.3073900328978607
 40
0.4124091456067512
 40
0.5136114329653304
 40
0.6165290152872716
 40
0.7194496299954443
 40
0.824104701009311
 40
0.9287681380718069
 40
1.0
 40
1.0
 40
1.0
 40
1.0
 10
796.9113408072105
 20
-650.0975469309745
 30
0.0
 10
795.8967959921677
 20
-650.7012864435361
 30
0.0
 10
793.8488476339227
 20
-651.9199879983864
 30
0.0
 10
791.1129332157564
 20
-653.7970555483157
 30
0.0
 10
788.6257060643828
 20
-655.7154048040939
 30
0.0
 10
786.4791246132636
 20
-657.6345165120628
 30
0.0
 10
784.6613667670108
 20
-659.5564080535388
 30
0.0
 10
783.191313585973
 20
-661.4641616131194
 30
0.0
 10
782.0464138811662
 20
-663.3892844038188
 30
0.0
 10
781.266492175149
 20
-665.3189922699215
 30
0.0
 10
780.8430349690034
 20
-667.0479077389798
 30
0.0
 10
780.8438798155296
 20
-668.1284941285803
 30
0.0
 10
780.8442219508308
 20
-668.566096389398
 30
0.0
  0
SPLINE
  5
C4
330
1F
100
AcDbEntity
  8
0
  6
Continuous
 62
     7
370
    25
100
AcDbSpline
210
0.0
220
0.0
230
1.0
 70
     8
 71
     3
 72
    36
 73
    32
 74
     0
 42
0.000000001
 43
0.00000001
 40
0.0
 40
0.0
 40
0.0
 40
0.0
 40
0.0087536398675119
 40
0.044378487253062
 40
0.0806352428344844
 40
0.1168910528011226
 40
0.1538110995810212
 40
0.1893527453006502
 40
0.2255984543678639
 40
0.2618427400062329
 40
0.2988365435578726
 40
0.3324057644891514
 40
0.3666067353276147
 40
0.4008081366425639
 40
0.4356602596617034
 40
0.468535609090504
 40
0.501955059624227
 40
0.5353756132593951
 40
0.5693443013709012
 40
0.6037767403242198
 40
0.6387758771473246
 40
0.6737752779978262
 40
0.7093561121406649
 40
0.7452455812654477
 40
0.7813888018297243
 40
0.818350470126296
 40
0.8556046252600793
 40
0.8909840339107321
 40
0.9270734527704196
 40
0.9631620086784279
 40
0.9999999999999999
 40
0.9999999999999999
 40
0.9999999999999999
 40
0.9999999999999999
 10
890.7675729685974
 20
-668.5653710296559
 30
0.0
 10
890.7779731343803
 20
-668.2938738344774
 30
0.0
 10
890.8306990440148
 20
-666.9174595659177
 30
0.0
 10
890.5490249088126
 20
-664.4147512546505
 30
0.0
 10
889.8966912351901
 20
-661.1013985976127
 30
0.0
 10
888.8130374734102
 20
-657.8251679375699
 30
0.0
 10
887.353918407257
 20
-654.6853239114289
 30
0.0
 10
885.5143827890298
 20
-651.6957104529462
 30
0.0
 10
883.3224768895733
 20
-648.9069381278507
 30
0.0
 10
880.7450282604012
 20
-646.2981566176652
 30
0.0
 10
877.8948666573083
 20
-643.9991568083524
 30
0.0
 10
874.8056153401998
 20
-641.9994877211155
 30
0.0
 10
871.5441852953443
 20
-640.3088156720697
 30
0.0
 10
868.00876908978
 20
-638.8668256624351
 30
0.0
 10
864.3115346591102
 20
-637.7211307511316
 30
0.0
 10
860.4699604770652
 20
-636.8537302352759
 30
0.0
 10
856.540571404428
 20
-636.2563126281557
 30
0.0
 10
852.4499342275116
 20
-635.9060497092706
 30
0.0
 10
848.2227913822052
 20
-635.8024037197804
 30
0.0
 10
843.8581666494549
 20
-635.9412163347826
 30
0.0
 10
839.4022900407535
 20
-636.3175686778527
 30
0.0
 10
834.8756160979528
 20
-636.9212796468588
 30
0.0
 10
830.3152789028376
 20
-637.7408784671773
 30
0.0
 10
825.7388749633647
 20
-638.7661477900704
 30
0.0
 10
821.1671469690173
 20
-639.9865633794761
 30
0.0
 10
816.6349136829897
 20
-641.3893917978985
 30
0.0
 10
812.2660278214338
 20
-642.9304587595727
 30
0.0
 10
808.0923951588246
 20
-644.5822941498227
 30
0.0
 10
804.1588675535132
 20
-646.3191065657209
 30
0.0
 10
800.3768140153064
 20
-648.160975421989
 30
0.0
 10
798.0743855723965
 20
-649.4476156746392
 30
0.0
 10
796.9113408072105
 20
-650.0975469309745
 30
0.0
  0
LWPOLYLINE
  5
C5
330
1F
100
AcDbEntity
  8
0
  6
Continuous
 62
     7
370
    25
100
AcDbPolyline
 90
      134
 70
   128
 43
0.0
 10
584.0721950761
 20
-527.2281234496
 10
589.3315468609
 20
-524.0484862361
 10
594.5791633825
 20
-520.5889595543
 10
599.8033337441
 20
-516.8572895211
 10
604.9924036834
 20
-512.861797929
 10
610.1347920366
 20
-508.6113849095
 10
615.2190216903
 20
-504.1155475672
 10
620.2337538248
 20
-499.3843237086
 10
625.1677931838
 20
-494.4282522991
 10
630.0101315371
 20
-489.2583970407
 10
634.7499661206
 20
-483.886311393
 10
639.3767207096
 20
-478.3239534029
 10
643.8800693261
 20
-472.5837693582
 10
648.2499599469
 20
-466.6785340922
 10
652.4766461131
 20
-460.6214544099
 10
656.5506974674
 20
-454.4260230799
 10
660.4630155589
 20
-448.1060766313
 10
664.2048812583
 20
-441.6757132279
 10
667.7679336846
 20
-435.1492804991
 10
671.1442334251
 20
-428.5413451269
 10
674.326236194
 20
-421.8666532999
 10
677.306850784
 20
-415.1400911743
 10
680.0794285297
 20
-408.3766666218
 10
682.6377633077
 20
-401.5914909786
 10
684.9761758302
 20
-394.7996817141
 10
687.0894188146
 20
-388.0164080497
 10
688.9727928871
 20
-381.256802756
 10
690.6220938998
 20
-374.5359438966
 10
692.03364454
 20
-367.8688335386
 10
693.2042837941
 20
-361.2703490811
 10
694.1314090942
 20
-354.7552143626
 10
694.8129552447
 20
-348.3379601142
 10
695.2473838858
 20
-342.0329193961
 10
695.4337467132
 20
-335.8541471846
 10
695.3716117217
 20
-329.8154403273
 10
695.0611264255
 20
-323.9302691073
 10
694.5029862474
 20
-318.2117631718
 10
693.6984239827
 20
-312.6726904283
 10
692.649251946
 20
-307.3254017245
 10
691.3577987507
 20
-302.1818350254
 10
689.826940919
 20
-297.2534720697
 10
688.0601134193
 20
-292.5512942639
 10
686.0612464451
 20
-288.085808532
 10
683.8347970257
 20
-283.8669773561
 10
681.3857490259
 20
-279.9042005253
 10
678.7195393891
 20
-276.2063485888
 10
675.8421529678
 20
-272.7816411911
 10
672.7599750096
 20
-269.6377443974
 10
669.4799123293
 20
-266.7816581562
 10
666.0092668684
 20
-264.2197649571
 10
662.3557883787
 20
-261.9577750829
 10
658.5276270069
 20
-260.0007418137
 10
654.5333280267
 20
-258.3530279664
 10
650.3818002281
 20
-257.0183058919
 10
646.0823106495
 20
-255.9995665998
 10
641.6444529671
 20
-255.2990771697
 10
637.0781316906
 20
-254.918395959
 10
632.393530552
 20
-254.8583725999
 10
627.6011072382
 20
-255.1191510405
 10
622.7115538779
 20
-255.7001315186
 10
617.7357786022
 20
-256.6000420429
 10
612.68488974
 20
-257.8168501777
 10
607.5701510364
 20
-259.3478497323
 10
602.4029829704
 20
-261.1896356648
 10
597.1949100708
 20
-263.338085827
 10
591.9575549896
 20
-265.7884130547
 10
586.7026047517
 20
-268.5351359825
 10
581.4417854004
 20
-271.5721423495
 10
576.1868351625
 20
-274.8926558217
 10
570.9494800813
 20
-278.4892500583
 10
565.7414071817
 20
-282.3539128733
 10
560.5742391157
 20
-286.4780122024
 10
555.4595004121
 20
-290.852364256
 10
550.4086115499
 20
-295.4671882717
 10
545.4328362742
 20
-300.312185597
 10
540.5432829139
 20
-305.3765632639
 10
535.7508596001
 20
-310.6489990035
 10
531.0662584615
 20
-316.1177477093
 10
526.499937185
 20
-321.7705912448
 10
522.0620795026
 20
-327.5949220909
 10
517.762589924
 20
-333.577746387
 10
513.6110621254
 20
-339.7057204305
 10
509.6167631452
 20
-345.9651537171
 10
505.7886017734
 20
-352.3420880259
 10
502.1351232837
 20
-358.8222943771
 10
498.6644778228
 20
-365.3913095313
 10
495.3844151425
 20
-372.034475533
 10
492.3022371843
 20
-378.7369792501
 10
489.424850763
 20
-385.4838462956
 10
486.7586411262
 20
-392.2600383545
 10
484.3095931264
 20
-399.0504258186
 10
482.083143707
 20
-405.8398607773
 10
480.0842767328
 20
-412.6131891937
 10
478.3174492331
 20
-419.3553026095
 10
476.7865914015
 20
-426.0511563954
 10
475.4951382061
 20
-432.6858032153
 10
474.4459661694
 20
-439.2444401684
 10
473.6414039047
 20
-445.71244073
 10
473.0832637266
 20
-452.0753615984
 10
472.7727784304
 20
-458.319011511
 10
472.7106434389
 20
-464.4294579024
 10
472.8970062663
 20
-470.3930601734
 10
473.3314349074
 20
-476.196520259
 10
474.0129810579
 20
-481.8268780715
 10
474.9401063581
 20
-487.2715767034
 10
476.1107456122
 20
-492.5184698475
 10
477.5222962523
 20
-497.5558385264
 10
479.171597265
 20
-502.3724549695
 10
481.0549713375
 20
-506.9575628445
 10
483.1682143219
 20
-511.3009380939
 10
485.5066268444
 20
-515.3928737283
 10
488.0649616224
 20
-519.22425891
 10
490.8375393681
 20
-522.7865333357
 10
493.8181539581
 20
-526.0717511068
 10
497.000156727
 20
-529.0725807372
 10
500.3764564675
 20
-531.7823234043
 10
503.9395088938
 20
-534.1949433668
 10
507.6813745932
 20
-536.3050405931
 10
511.5936926847
 20
-538.1079207217
 10
515.667744039
 20
-539.5995524811
 10
519.8944302052
 20
-540.7766041903
 10
524.264320826
 20
-541.6364711392
 10
528.7676694425
 20
-542.1771995448
 10
533.3944240315
 20
-542.3976203928
 10
538.134258615
 20
-542.2972095157
 10
542.9765969683
 20
-541.8762199159
 10
547.9106363273
 20
-541.1355707397
 10
552.9253684619
 20
-540.0769081168
 10
558.0095981155
 20
-538.7026188503
 10
563.1519864687
 20
-537.0157566556
 10
568.341056408
 20
-535.0200756214
 10
573.5652267696
 20
-532.7200469435
 10
578.8128432912
 20
-530.1208045539
 10
584.0721950761
 20
-527.2281234496
  0
LWPOLYLINE
  5
C6
330
1F
100
AcDbEntity
  8
0
  6
Continuous
 62
     7
370
    25
100
AcDbPolyline
 90
       51
 70
   128
 43
0.0
 10
1087.5322320474
 20
-817.8694163193
 10
1092.7915838322
 20
-814.6897791058
 10
1098.0392003539
 20
-811.230252424
 10
1103.2633707155
 20
-807.4985823908
 10
1108.4524406547
 20
-803.5030907987
 10
1113.594829008
 20
-799.2526777792
 10
1118.6790586616
 20
-794.7568404369
 10
1123.6937907962
 20
-790.0256165783
 10
1128.6278301552
 20
-785.0695451688
 10
1133.4701685084
 20
-779.8996899104
 10
1138.210003092
 20
-774.5276042627
 10
1142.836757681
 20
-768.9652462726
 10
1147.3401062975
 20
-763.2250622279
 10
1151.7099969182
 20
-757.3198269619
 10
1155.9366830844
 20
-751.2627472796
 10
1160.0107344388
 20
-745.0673159496
 10
1163.9230525303
 20
-738.747369501
 10
1167.6649182297
 20
-732.3170060976
 10
1171.227970656
 20
-725.7905733688
 10
1174.6042703965
 20
-719.1826379966
 10
1177.7862731653
 20
-712.5079461696
 10
1180.7668877553
 20
-705.781384044
 10
1183.5394655011
 20
-699.0179594915
 10
1186.0978002791
 20
-692.2327838483
 10
1188.4362128016
 20
-685.4409745838
 10
1190.5494557859
 20
-678.6577009194
 10
1192.4328298585
 20
-671.8980956257
 10
1194.0821308711
 20
-665.1772367663
 10
1195.4936815113
 20
-658.5101264083
 10
1196.6643207654
 20
-651.9116419508
 10
1197.5914460655
 20
-645.3965072323
 10
1198.2729922161
 20
-638.9792529839
 10
1198.7074208571
 20
-632.6742122658
 10
1198.8937836845
 20
-626.4954400543
 10
1198.8316486931
 20
-620.456733197
 10
1198.5211633968
 20
-614.571561977
 10
1197.9630232187
 20
-608.8530560415
 10
1197.1584609541
 20
-603.313983298
 10
1196.1092889174
 20
-597.9666945942
 10
1194.817835722
 20
-592.8231278951
 10
1193.2869778904
 20
-587.8947649394
 10
1191.5201503907
 20
-583.1925871336
 10
1189.5212834165
 20
-578.7271014017
 10
1187.2948339971
 20
-574.5082702258
 10
1184.8457859972
 20
-570.545493395
 10
1182.1795763604
 20
-566.8476414585
 10
1179.3021899392
 20
-563.4229340608
 10
1176.220011981
 20
-560.2790372671
 10
1172.9399493007
 20
-557.4229510259
 10
1169.4693038398
 20
-554.8610578268
 10
1166.2758318598
 20
-552.8615407765
  0
LWPOLYLINE
  5
C7
330
1F
100
AcDbEntity
  8
0
  6
Continuous
 62
     7
370
    25
100
AcDbPolyline
 90
       18
 70
   128
 43
0.0
 10
1008.7886322351
 20
-825.6669380649
 10
1011.1414115646
 20
-826.9463334628
 10
1015.0537296561
 20
-828.7492135914
 10
1019.1277810104
 20
-830.2408453508
 10
1023.3544671766
 20
-831.41789706
 10
1027.7243577973
 20
-832.2777640089
 10
1032.2277064139
 20
-832.8184924145
 10
1036.8544610029
 20
-833.0389132625
 10
1041.5942955864
 20
-832.9385023854
 10
1046.4366339397
 20
-832.5175127856
 10
1051.3706732986
 20
-831.7768636094
 10
1056.3854054332
 20
-830.7182009865
 10
1061.4696350868
 20
-829.34391172
 10
1066.6120234401
 20
-827.6570495253
 10
1071.8010933794
 20
-825.6613684911
 10
1077.0252637409
 20
-823.3613398132
 10
1082.2728802626
 20
-820.7620974236
 10
1087.5322320474
 20
-817.8694163193
  0
LWPOLYLINE
  5
C8
330
1F
100
AcDbEntity
  8
0
  6
Continuous
 62
     7
370
    25
100
AcDbPolyline
 90
      126
 70
   128
 43
0.0
 10
584.0721950761
 20
-511.9588073082
 10
589.0034952191
 20
-508.9688787964
 10
593.9223383343
 20
-505.700219694
 10
598.816299333
 20
-502.1610614163
 10
603.67301503
 20
-498.3603540219
 10
608.4802173996
 20
-494.3077105116
 10
613.2257628811
 20
-490.0133534092
 10
617.8976646474
 20
-485.4881326348
 10
622.4841189466
 20
-480.7434859636
 10
626.9735432981
 20
-475.791398725
 10
631.3545949312
 20
-470.6443749064
 10
635.6162050297
 20
-465.3154173847
 10
639.7476129765
 20
-459.8179899059
 10
643.7383768898
 20
-454.1659805848
 10
647.5784236728
 20
-448.3736608434
 10
651.2580437454
 20
-442.4556702025
 10
654.7679489956
 20
-436.4269524071
 10
658.0992675121
 20
-430.3027402175
 10
661.2435909984
 20
-424.0985037016
 10
664.1929695053
 20
-417.8299106911
 10
666.9399588456
 20
-411.5127994084
 10
669.4776153261
 20
-405.1631267552
 10
671.7995326258
 20
-398.7969318139
 10
673.8998365276
 20
-392.4303023861
 10
675.7732323338
 20
-386.0793141605
 10
677.4149890605
 20
-379.7600063765
 10
678.8209447066
 20
-373.4883544479
 10
679.9875589366
 20
-367.2801954428
 10
680.911892008
 20
-361.1512037465
 10
681.591594234
 20
-355.1168712883
 10
682.0249481304
 20
-349.1924436674
 10
682.2108684159
 20
-343.3928793719
 10
682.1488809384
 20
-337.732831622
 10
681.8391437487
 20
-332.2265972297
 10
681.2824365634
 20
-326.8880871308
 10
680.480171302
 20
-321.7307837043
 10
679.4343710132
 20
-316.7677146299
 10
678.1476804117
 20
-312.0114217097
 10
676.6233448049
 20
-307.4739129573
 10
674.8652100927
 20
-303.1666625977
 10
672.8777333044
 20
-299.1005365428
 10
670.6659193781
 20
-295.2858136787
 10
668.2353685764
 20
-291.7321341586
 10
665.5922079973
 20
-288.4484659358
 10
662.7431284532
 20
-285.4431078092
 10
659.6953107133
 20
-282.7236498721
 10
656.4564676508
 20
-280.2969674329
 10
653.0347757545
 20
-278.1691875479
 10
649.4388751282
 20
-276.3456829376
 10
645.6778536861
 20
-274.8310567762
 10
641.7612155426
 20
-273.6291426885
 10
637.6988441337
 20
-272.7429773697
 10
633.5010074853
 20
-272.1747914605
 10
629.1783160665
 20
-271.9260277942
 10
624.7416753745
 20
-271.9973140155
 10
620.2023017391
 20
-272.3884534565
 10
615.5716617376
 20
-273.0984905307
 10
610.8614511202
 20
-274.1256012249
 10
606.0835671521
 20
-275.4672003209
 10
601.2500822711
 20
-277.1199079336
 10
596.3732032584
 20
-279.0795487461
 10
591.4652514816
 20
-281.3411634153
 10
586.5386240411
 20
-283.8990310013
 10
581.605766111
 20
-286.7467092698
 10
576.6791386705
 20
-289.8770046507
 10
571.7711868937
 20
-293.281990486
 10
566.894307881
 20
-296.9530743282
 10
562.060823
 20
-300.8809895721
 10
557.2829390319
 20
-305.0558178852
 10
552.5727284145
 20
-309.4670006126
 10
547.942088413
 20
-314.1033866823
 10
543.4027147777
 20
-318.9532964818
 10
538.9660740856
 20
-324.0044465695
 10
534.6433826668
 20
-329.2440835142
 10
530.4455460184
 20
-334.6589884523
 10
526.3831746095
 20
-340.2354679637
 10
522.466536466
 20
-345.9594361972
 10
518.705515024
 20
-351.8164452854
 10
515.1096143976
 20
-357.7916883866
 10
511.6879225013
 20
-363.8700696443
 10
508.4490794388
 20
-370.0362406861
 10
505.4012616989
 20
-376.274634083
 10
502.5521821548
 20
-382.5694694328
 10
499.9090215757
 20
-388.9048659023
 10
497.478470774
 20
-395.2647996453
 10
495.2666568477
 20
-401.6332285115
 10
493.2791800594
 20
-407.9940464223
 10
491.5210453472
 20
-414.3311959131
 10
489.9967097404
 20
-420.6286650953
 10
488.7100191389
 20
-426.8705393624
 10
487.6642188501
 20
-433.0410637489
 10
486.8619535887
 20
-439.1246429299
 10
486.3052464034
 20
-445.1059134634
 10
485.9955092137
 20
-450.9697628028
 10
485.9335217362
 20
-456.7013797708
 10
486.1194420217
 20
-462.2862850738
 10
486.5527959181
 20
-467.710372936
 10
487.2324981441
 20
-472.9599379083
 10
488.1568312155
 20
-478.0217173567
 10
489.3234454455
 20
-482.8829322423
 10
490.7294010916
 20
-487.5313023344
 10
492.3711578183
 20
-491.9550781492
 10
494.2445536245
 20
-496.1430896173
 10
496.3448575264
 20
-500.0847597767
 10
498.666774826
 20
-503.7701260669
 10
501.2044313065
 20
-507.1898829127
 10
503.9514206468
 20
-510.3353878126
 10
506.9007991537
 20
-513.1987008826
 10
510.04512264
 20
-515.7725787754
 10
513.3764411565
 20
-518.0505324759
 10
516.8863464067
 20
-520.0267999281
 10
520.5659664793
 20
-521.6963916631
 10
524.4060132623
 20
-523.055087761
 10
528.3967771756
 20
-524.0994591442
 10
532.5281851224
 20
-524.8268645404
 10
536.789795221
 20
-525.235471775
 10
541.170846854
 20
-525.324241046
 10
545.6602712055
 20
-525.0929492597
 10
550.2467255047
 20
-524.5421885128
 10
554.918627271
 20
-523.6733463238
 10
559.6641727525
 20
-522.488613239
 10
564.4713751221
 20
-520.9909790343
 10
569.3280908191
 20
-519.1842418428
 10
574.2220518178
 20
-517.0729530245
 10
579.140894933
 20
-514.6624367508
 10
584.0721950761
 20
-511.9588073082
  0
LWPOLYLINE
  5
C9
330
1F
100
AcDbEntity
  8
0
  6
Continuous
 62
     7
370
    25
100
AcDbPolyline
 90
       74
 70
   128
 43
0.0
 10
870.0261815857
 20
-802.9471373854
 10
872.841547273
 20
-801.1755872936
 10
875.3826871247
 20
-799.2708789795
 10
877.6307861948
 20
-797.2471131254
 10
879.5691987832
 20
-795.1192731678
 10
881.1835811318
 20
-792.9031152379
 10
882.4619714383
 20
-790.6150428959
 10
883.3949103694
 20
-788.2720010635
 10
883.9754924272
 20
-785.8913338407
 10
884.199413365
 20
-783.4906658924
 10
884.0650176018
 20
-781.0877747121
 10
883.573300857
 20
-778.7004461566
 10
882.7279061986
 20
-776.3463581148
 10
881.5350911168
 20
-774.0429368033
 10
880.003682742
 20
-771.8072396739
 10
878.1450212106
 20
-769.6558162721
 10
875.9728727371
 20
-767.6045941856
 10
873.5033127222
 20
-765.6687629026
 10
870.7546241724
 20
-763.862654344
 10
867.7471630278
 20
-762.1996377458
 10
864.5031923731
 20
-760.6920269931
 10
861.0467303146
 20
-759.3509836769
 10
857.4033644343
 20
-758.1864373531
 10
853.600074313
 20
-757.2070074184
 10
849.6650114112
 20
-756.4199490302
 10
845.6273182992
 20
-755.8310852473
 10
841.5168797266
 20
-755.4447788964
 10
837.3641309865
 20
-755.2638888535
 10
833.1998195219
 20
-755.2897540759
 10
829.0547770697
 20
-755.5221837186
 10
824.9596878525
 20
-755.9594556131
 10
820.9448738937
 20
-756.5983352758
 10
817.0400592584
 20
-757.4340903551
 10
813.2741507575
 20
-758.4605320691
 10
809.6750337998
 20
-759.6700631074
 10
806.2693527668
 20
-761.0537283839
 10
803.0823236569
 20
-762.601283657
 10
800.1375404737
 20
-764.3012708035
 10
797.4568056499
 20
-766.1411035467
 10
795.0599673879
 20
-768.1071613583
 10
792.9647711573
 20
-770.1848873523
 10
791.1867293032
 20
-772.3589000547
 10
789.739002179
 20
-774.6131015617
 10
788.6323102308
 20
-776.9308043264
 10
787.8748510206
 20
-779.2948490114
 10
787.4722274451
 20
-781.6877310851
 10
787.427422711
 20
-784.0917369229
 10
787.7407674075
 20
-786.489067742
 10
788.4099421409
 20
-788.8619734212
 10
789.4299946566
 20
-791.19288404
 10
790.7933674976
 20
-793.4645474994
 10
792.4899737379
 20
-795.6601401519
 10
794.507245714
 20
-797.7634105053
 10
796.8302525756
 20
-799.758783579
 10
799.4417939632
 20
-801.6314879762
 10
802.3225353395
 20
-803.3676583396
 10
805.4511461185
 20
-804.9544424638
 10
808.8044675947
 20
-806.3800891146
 10
812.3576734635
 20
-807.6340437372
 10
816.0844519083
 20
-808.7070262002
 10
819.9572125483
 20
-809.5910894372
 10
823.947287624
 20
-810.2796869267
 10
828.0251295605
 20
-810.7677228748
 10
832.1605519946
 20
-811.0515849095
 10
836.3229326067
 20
-811.1291699321
 10
840.4814620505
 20
-810.9999031262
 10
844.6053454678
 20
-810.6647402384
 10
848.6640527351
 20
-810.1261660574
 10
852.6275397348
 20
-809.3881670422
 10
856.4664538213
 20
-808.4562039497
 10
860.1523801161
 20
-807.3371821815
 10
863.6580252419
 20
-806.0393822127
 10
866.9574343135
 20
-804.5724134017
 10
870.0261815857
 20
-802.9471373854
  0
LWPOLYLINE
  5
CA
330
1F
100
AcDbEntity
  8
0
  6
Continuous
 62
     7
370
    25
100
AcDbPolyline
 90
       79
 70
   128
 43
0.0
 10
874.6930863163
 20
-805.6412841398
 10
877.6963900694
 20
-803.7619088106
 10
880.4279954808
 20
-801.7491175039
 10
882.8701847396
 20
-799.6159639151
 10
885.0071195211
 20
-797.3762810871
 10
886.8249420734
 20
-795.0445956826
 10
888.3118618154
 20
-792.6360293297
 10
889.4582363386
 20
-790.1662001579
 10
890.2566319925
 20
-787.6511300372
 10
890.7018686659
 20
-785.1071274853
 10
890.7910619341
 20
-782.5506933857
 10
890.5236296436
 20
-779.9984046561
 10
889.9013090348
 20
-777.4668146433
 10
888.9281343514
 20
-774.9723428747
 10
887.610417084
 20
-772.5311663293
 10
885.9567051403
 20
-770.1591167921
 10
883.9777202833
 20
-767.8715778281
 10
881.6863001798
 20
-765.6833844176
 10
879.097304228
 20
-763.6087290538
 10
876.2275221848
 20
-761.6610664161
 10
873.0955671522
 20
-759.8530272609
 10
869.7217509477
 20
-758.196337351
 10
866.127953054
 20
-756.7017418014
 10
862.3374801844
 20
-755.3789331325
 10
858.3749171225
 20
-754.2364894921
 10
854.2659615922
 20
-753.2818219077
 10
850.0372615969
 20
-752.5211199212
 10
845.7162415641
 20
-751.9593181348
 10
841.3309238797
 20
-751.6000600943
 10
836.9097510811
 20
-751.4456747192
 10
832.4813975131
 20
-751.4971648969
 10
828.0745783506
 20
-751.7541945575
 10
823.7178770592
 20
-752.2150985579
 10
819.4395438814
 20
-752.8768864835
 10
815.2673325169
 20
-753.7352669795
 10
811.2282972912
 20
-754.7846736016
 10
807.3486324706
 20
-756.0182997925
 10
803.6535016992
 20
-757.4281456422
 10
800.166867107
 20
-759.0050678805
 10
796.9113408072
 20
-760.7388382328
 10
793.908037054
 20
-762.6182135621
 10
791.1764316427
 20
-764.6310048687
 10
788.7342423839
 20
-766.7641584576
 10
786.5973076023
 20
-769.0038412855
 10
784.7794850501
 20
-771.33552669
 10
783.2925653081
 20
-773.744093043
 10
782.1461907849
 20
-776.2139222147
 10
781.347795131
 20
-778.7289923354
 10
780.9025584575
 20
-781.2729948873
 10
780.8133651894
 20
-783.8294289869
 10
781.0807974799
 20
-786.3817177166
 10
781.7031180887
 20
-788.9133077294
 10
782.676292772
 20
-791.407779498
 10
783.9940100395
 20
-793.8489560434
 10
785.6477219832
 20
-796.2210055805
 10
787.6267068402
 20
-798.5085445445
 10
789.9181269437
 20
-800.6967379551
 10
792.5071228955
 20
-802.7713933188
 10
795.3769049387
 20
-804.7190559565
 10
798.5088599713
 20
-806.5270951117
 10
801.8826761758
 20
-808.1837850216
 10
805.4764740695
 20
-809.6783805712
 10
809.2669469391
 20
-811.0011892402
 10
813.2295100009
 20
-812.1436328805
 10
817.3384655313
 20
-813.098300465
 10
821.5671655266
 20
-813.8590024514
 10
825.8881855594
 20
-814.4208042379
 10
830.2735032437
 20
-814.7800622783
 10
834.6946760424
 20
-814.9344476534
 10
839.1230296104
 20
-814.8829574757
 10
843.5298487729
 20
-814.6259278151
 10
847.8865500642
 20
-814.1650238148
 10
852.164883242
 20
-813.5032358891
 10
856.3370946065
 20
-812.6448553932
 10
860.3761298323
 20
-811.595448771
 10
864.2557946529
 20
-810.3618225801
 10
867.9509254242
 20
-808.9519767304
 10
871.4375600165
 20
-807.3750544922
 10
874.6930863163
 20
-805.6412841398
  0
ENDSEC
  0
SECTION
  2
OBJECTS
  0
DICTIONARY
  5
C
330
0
100
AcDbDictionary
281
     1
  3
ACAD_GROUP
350
D
  3
ACAD_LAYOUT
350
1A
  3
ACAD_MLINESTYLE
350
17
  3
ACAD_PLOTSETTINGS
350
19
  3
ACAD_PLOTSTYLENAME
350
E
  3
ACAD_SCALELIST
350
47
  0
DICTIONARY
  5
D
102
{ACAD_REACTORS
330
C
102
}
330
C
100
AcDbDictionary
281
     1
  0
DICTIONARY
  5
1A
102
{ACAD_REACTORS
330
C
102
}
330
C
100
AcDbDictionary
281
     1
  3
Layout1
350
1E
  3
Layout2
350
26
  3
Model
350
22
  0
DICTIONARY
  5
17
102
{ACAD_REACTORS
330
C
102
}
330
C
100
AcDbDictionary
281
     1
  3
Standard
350
18
  0
DICTIONARY
  5
19
102
{ACAD_REACTORS
330
C
102
}
330
C
100
AcDbDictionary
281
     1
  0
ACDBDICTIONARYWDFLT
  5
E
102
{ACAD_REACTORS
330
C
102
}
330
C
100
AcDbDictionary
281
     1
  3
Normal
350
F
100
AcDbDictionaryWithDefault
340
F
  0
DICTIONARY
  5
47
102
{ACAD_REACTORS
330
C
102
}
330
C
100
AcDbDictionary
281
     1
  3
A0
350
48
  3
A1
350
49
  3
A2
350
4A
  3
A3
350
4B
  3
A4
350
4C
  3
A5
350
4D
  3
A6
350
4E
  3
A7
350
4F
  3
A8
350
50
  3
A9
350
51
  3
B0
350
52
  3
B1
350
53
  3
B2
350
54
  3
B3
350
55
  3
B4
350
56
  3
B5
350
57
  3
B6
350
58
  3
B7
350
59
  3
B8
350
5A
  3
B9
350
5B
  3
C0
350
5C
  3
C1
350
5D
  3
C2
350
5E
  3
C3
350
5F
  3
C4
350
60
  3
C5
350
61
  3
C6
350
62
  3
C7
350
63
  3
C8
350
64
  3
C9
350
65
  3
D0
350
66
  3
D1
350
67
  3
D2
350
68
  0
LAYOUT
  5
1E
102
{ACAD_REACTORS
330
1A
102
}
330
1A
100
AcDbPlotSettings
  1

  2
none_device
  4

  6

 40
0.0
 41
0.0
 42
0.0
 43
0.0
 44
0.0
 45
0.0
 46
0.0
 47
0.0
 48
0.0
 49
0.0
140
0.0
141
0.0
142
1.0
143
1.0
 70
   688
 72
     1
 73
     0
 74
     5
  7

 75
    16
147
1.0
148
0.0
149
0.0
100
AcDbLayout
  1
Layout1
 70
     1
 71
     1
 10
0.0
 20
0.0
 11
420.0
 21
297.0
 12
0.0
 22
0.0
 32
0.0
 14
1.0000000000E+20
 24
1.0000000000E+20
 34
1.0000000000E+20
 15
-1.0000000000E+20
 25
-1.0000000000E+20
 35
-1.0000000000E+20
146
0.0
 13
0.0
 23
0.0
 33
0.0
 16
1.0
 26
0.0
 36
0.0
 17
0.0
 27
1.0
 37
0.0
 76
     0
330
1B
  0
LAYOUT
  5
26
102
{ACAD_REACTORS
330
1A
102
}
330
1A
100
AcDbPlotSettings
  1

  2
none_device
  4

  6

 40
0.0
 41
0.0
 42
0.0
 43
0.0
 44
0.0
 45
0.0
 46
0.0
 47
0.0
 48
0.0
 49
0.0
140
0.0
141
0.0
142
1.0
143
1.0
 70
   688
 72
     1
 73
     0
 74
     5
  7

 75
    16
147
1.0
148
0.0
149
0.0
100
AcDbLayout
  1
Layout2
 70
     1
 71
     2
 10
0.0
 20
0.0
 11
0.0
 21
0.0
 12
0.0
 22
0.0
 32
0.0
 14
0.0
 24
0.0
 34
0.0
 15
0.0
 25
0.0
 35
0.0
146
0.0
 13
0.0
 23
0.0
 33
0.0
 16
1.0
 26
0.0
 36
0.0
 17
0.0
 27
1.0
 37
0.0
 76
     0
330
23
  0
LAYOUT
  5
22
102
{ACAD_REACTORS
330
1A
102
}
330
1A
100
AcDbPlotSettings
  1

  2
none_device
  4
Letter_(8.50_x_11.00_Inches)
  6

 40
6.35
 41
6.35
 42
6.35000508
 43
6.35000508
 44
215.9
 45
279.4
 46
0.0
 47
0.0
 48
0.0
 49
0.0
140
0.0
141
0.0
142
1.0
143
1.0
 70
  1712
 72
     1
 73
     0
 74
     0
  7

 75
     0
147
1.0
148
0.0
149
0.0
100
AcDbLayout
  1
Model
 70
     1
 71
     0
 10
0.0
 20
0.0
 11
279.4
 21
215.9
 12
0.0
 22
0.0
 32
0.0
 14
0.0
 24
0.0
 34
0.0
 15
279.4
 25
215.9
 35
0.0
146
0.0
 13
0.0
 23
0.0
 33
0.0
 16
1.0
 26
0.0
 36
0.0
 17
0.0
 27
1.0
 37
0.0
 76
     0
330
1F
331
29
  0
MLINESTYLE
  5
18
102
{ACAD_REACTORS
330
17
102
}
330
17
100
AcDbMlineStyle
  2
Standard
 70
     0
  3

 62
   256
 51
90.0
 52
90.0
 71
     2
 49
0.5
 62
   256
  6
BYLAYER
 49
-0.5
 62
   256
  6
BYLAYER
  0
ACDBPLACEHOLDER
  5
F
102
{ACAD_REACTORS
330
E
102
}
330
E
  0
SCALE
  5
48
102
{ACAD_REACTORS
330
47
102
}
330
47
100
AcDbScale
 70
     0
300
1:1
140
1.0
141
1.0
290
     1
  0
SCALE
  5
49
102
{ACAD_REACTORS
330
47
102
}
330
47
100
AcDbScale
 70
     0
300
1:2
140
1.0
141
2.0
290
     0
  0
SCALE
  5
4A
102
{ACAD_REACTORS
330
47
102
}
330
47
100
AcDbScale
 70
     0
300
1:4
140
1.0
141
4.0
290
     0
  0
SCALE
  5
4B
102
{ACAD_REACTORS
330
47
102
}
330
47
100
AcDbScale
 70
     0
300
1:5
140
1.0
141
5.0
290
     0
  0
SCALE
  5
4C
102
{ACAD_REACTORS
330
47
102
}
330
47
100
AcDbScale
 70
     0
300
1:8
140
1.0
141
8.0
290
     0
  0
SCALE
  5
4D
102
{ACAD_REACTORS
330
47
102
}
330
47
100
AcDbScale
 70
     0
300
1:10
140
1.0
141
10.0
290
     0
  0
SCALE
  5
4E
102
{ACAD_REACTORS
330
47
102
}
330
47
100
AcDbScale
 70
     0
300
1:16
140
1.0
141
16.0
290
     0
  0
SCALE
  5
4F
102
{ACAD_REACTORS
330
47
102
}
330
47
100
AcDbScale
 70
     0
300
1:20
140
1.0
141
20.0
290
     0
  0
SCALE
  5
50
102
{ACAD_REACTORS
330
47
102
}
330
47
100
AcDbScale
 70
     0
300
1:30
140
1.0
141
30.0
290
     0
  0
SCALE
  5
51
102
{ACAD_REACTORS
330
47
102
}
330
47
100
AcDbScale
 70
     0
300
1:40
140
1.0
141
40.0
290
     0
  0
SCALE
  5
52
102
{ACAD_REACTORS
330
47
102
}
330
47
100
AcDbScale
 70
     0
300
1:50
140
1.0
141
50.0
290
     0
  0
SCALE
  5
53
102
{ACAD_REACTORS
330
47
102
}
330
47
100
AcDbScale
 70
     0
300
1:100
140
1.0
141
100.0
290
     0
  0
SCALE
  5
54
102
{ACAD_REACTORS
330
47
102
}
330
47
100
AcDbScale
 70
     0
300
2:1
140
2.0
141
1.0
290
     0
  0
SCALE
  5
55
102
{ACAD_REACTORS
330
47
102
}
330
47
100
AcDbScale
 70
     0
300
4:1
140
4.0
141
1.0
290
     0
  0
SCALE
  5
56
102
{ACAD_REACTORS
330
47
102
}
330
47
100
AcDbScale
 70
     0
300
8:1
140
8.0
141
1.0
290
     0
  0
SCALE
  5
57
102
{ACAD_REACTORS
330
47
102
}
330
47
100
AcDbScale
 70
     0
300
10:1
140
10.0
141
1.0
290
     0
  0
SCALE
  5
58
102
{ACAD_REACTORS
330
47
102
}
330
47
100
AcDbScale
 70
     0
300
100:1
140
100.0
141
1.0
290
     0
  0
SCALE
  5
59
102
{ACAD_REACTORS
330
47
102
}
330
47
100
AcDbScale
 70
     0
300
1/128" = 1'-0"
140
0.0078125
141
12.0
290
     0
  0
SCALE
  5
5A
102
{ACAD_REACTORS
330
47
102
}
330
47
100
AcDbScale
 70
     0
300
1/64" = 1'-0"
140
0.015625
141
12.0
290
     0
  0
SCALE
  5
5B
102
{ACAD_REACTORS
330
47
102
}
330
47
100
AcDbScale
 70
     0
300
1/32" = 1'-0"
140
0.03125
141
12.0
290
     0
  0
SCALE
  5
5C
102
{ACAD_REACTORS
330
47
102
}
330
47
100
AcDbScale
 70
     0
300
1/16" = 1'-0"
140
0.0625
141
12.0
290
     0
  0
SCALE
  5
5D
102
{ACAD_REACTORS
330
47
102
}
330
47
100
AcDbScale
 70
     0
300
3/32" = 1'-0"
140
0.09375
141
12.0
290
     0
  0
SCALE
  5
5E
102
{ACAD_REACTORS
330
47
102
}
330
47
100
AcDbScale
 70
     0
300
1/8" = 1'-0"
140
0.125
141
12.0
290
     0
  0
SCALE
  5
5F
102
{ACAD_REACTORS
330
47
102
}
330
47
100
AcDbScale
 70
     0
300
3/16" = 1'-0"
140
0.1875
141
12.0
290
     0
  0
SCALE
  5
60
102
{ACAD_REACTORS
330
47
102
}
330
47
100
AcDbScale
 70
     0
300
1/4" = 1'-0"
140
0.25
141
12.0
290
     0
  0
SCALE
  5
61
102
{ACAD_REACTORS
330
47
102
}
330
47
100
AcDbScale
 70
     0
300
3/8" = 1'-0"
140
0.375
141
12.0
290
     0
  0
SCALE
  5
62
102
{ACAD_REACTORS
330
47
102
}
330
47
100
AcDbScale
 70
     0
300
1/2" = 1'-0"
140
0.5
141
12.0
290
     0
  0
SCALE
  5
63
102
{ACAD_REACTORS
330
47
102
}
330
47
100
AcDbScale
 70
     0
300
3/4" = 1'-0"
140
0.75
141
12.0
290
     0
  0
SCALE
  5
64
102
{ACAD_REACTORS
330
47
102
}
330
47
100
AcDbScale
 70
     0
300
1" = 1'-0"
140
1.0
141
12.0
290
     0
  0
SCALE
  5
65
102
{ACAD_REACTORS
330
47
102
}
330
47
100
AcDbScale
 70
     0
300
1-1/2" = 1'-0"
140
1.5
141
12.0
290
     0
  0
SCALE
  5
66
102
{ACAD_REACTORS
330
47
102
}
330
47
100
AcDbScale
 70
     0
300
3" = 1'-0"
140
3.0
141
12.0
290
     0
  0
SCALE
  5
67
102
{ACAD_REACTORS
330
47
102
}
330
47
100
AcDbScale
 70
     0
300
6" = 1'-0"
140
6.0
141
12.0
290
     0
  0
SCALE
  5
68
102
{ACAD_REACTORS
330
47
102
}
330
47
100
AcDbScale
 70
     0
300
1'-0" = 1'-0"
140
12.0
141
12.0
290
     0
  0
ENDSEC
  0
EOF
